  0
SECTION
  2
HEADER
  0
ENDSEC
  0
SECTION
  2
TABLES
  0
ENDSEC
  0
SECTION
  2
BLOCKS
  0
ENDSEC
  0
SECTION
  2
ENTITIES
  0
LINE
  8
0
 10
1.009833
 20
0.399372
 30
0.000000
 11
0.142809
 21
0.399372
 31
0.000000
  0
LINE
  8
0
 10
0.069604
 20
0.326167
 30
0.000000
 11
0.069604
 21
-2.388748
 31
0.000000
  0
LINE
  8
0
 10
1.148308
 20
0.302411
 30
0.000000
 11
1.382412
 21
-0.340784
 31
0.000000
  0
LINE
  8
0
 10
1.336247
 20
0.370815
 30
0.000000
 11
1.553233
 21
-0.225351
 31
0.000000
  0
LINE
  8
0
 10
2.086988
 20
0.399372
 30
0.000000
 11
3.177763
 21
0.399372
 31
0.000000
  0
LINE
  8
0
 10
2.013783
 20
-0.237565
 30
0.000000
 11
2.013783
 21
0.326167
 31
0.000000
  0
LINE
  8
0
 10
1.813783
 20
-1.825016
 30
0.000000
 11
1.813783
 21
-2.388748
 31
0.000000
  0
LINE
  8
0
 10
2.013783
 20
-1.825016
 30
0.000000
 11
2.013783
 21
-2.388748
 31
0.000000
  0
LINE
  8
0
 10
1.356243
 20
0.599372
 30
0.000000
 11
1.740578
 21
0.599372
 31
0.000000
  0
LINE
  8
0
 10
1.009833
 20
0.599372
 30
0.000000
 11
0.142809
 21
0.599372
 31
0.000000
  0
LINE
  8
0
 10
-0.130396
 20
0.326167
 30
0.000000
 11
-0.130396
 21
-2.388748
 31
0.000000
  0
LINE
  8
0
 10
1.740578
 20
-2.661953
 30
0.000000
 11
0.142809
 21
-2.661953
 31
0.000000
  0
LINE
  8
0
 10
2.086988
 20
-2.661953
 30
0.000000
 11
3.177763
 21
-2.661953
 31
0.000000
  0
LINE
  8
0
 10
1.740578
 20
0.399372
 30
0.000000
 11
1.356243
 21
0.399372
 31
0.000000
  0
LINE
  8
0
 10
2.086988
 20
0.599372
 30
0.000000
 11
3.177763
 21
0.599372
 31
0.000000
  0
LINE
  8
0
 10
2.086988
 20
-2.461953
 30
0.000000
 11
2.632375
 21
-2.461953
 31
0.000000
  0
LINE
  8
0
 10
2.632375
 20
-2.461953
 30
0.000000
 11
3.177763
 21
-2.461953
 31
0.000000
  0
LINE
  8
0
 10
0.142809
 20
-2.461953
 30
0.000000
 11
0.941693
 21
-2.461953
 31
0.000000
  0
LINE
  8
0
 10
0.941693
 20
-2.461953
 30
0.000000
 11
1.740578
 21
-2.461953
 31
0.000000
  0
LINE
  8
0
 10
1.813783
 20
0.326167
 30
0.000000
 11
1.813783
 21
0.044301
 31
0.000000
  0
LINE
  8
0
 10
1.813783
 20
0.044301
 30
0.000000
 11
1.813783
 21
-0.237565
 31
0.000000
  0
ARC
  8
0
 10
1.913783
 20
-1.031290
 30
0.000000
 40
2.000000
 50
318.046247
 51
401.953753
  0
CIRCLE
  8
0
 10
1.563783
 20
-0.425073
 30
0.000000
 40
0.100000
  0
CIRCLE
  8
0
 10
2.263783
 20
-0.425073
 30
0.000000
 40
0.100000
  0
CIRCLE
  8
0
 10
2.613783
 20
-1.031290
 30
0.000000
 40
0.100000
  0
CIRCLE
  8
0
 10
2.263783
 20
-1.637508
 30
0.000000
 40
0.100000
  0
CIRCLE
  8
0
 10
1.563783
 20
-1.637508
 30
0.000000
 40
0.100000
  0
CIRCLE
  8
0
 10
1.213783
 20
-1.031290
 30
0.000000
 40
0.100000
  0
ARC
  8
0
 10
2.613783
 20
-1.031290
 30
0.000000
 40
0.200000
 50
293.132396
 51
426.867604
  0
ARC
  8
0
 10
2.263783
 20
-1.637508
 30
0.000000
 40
0.200000
 50
0.000000
 51
6.867604
  0
ARC
  8
0
 10
1.563783
 20
-1.637508
 30
0.000000
 40
0.200000
 50
7.383198
 51
112.616802
  0
ARC
  8
0
 10
1.213783
 20
-1.031290
 30
0.000000
 40
0.200000
 50
113.132396
 51
246.867604
  0
ARC
  8
0
 10
1.563783
 20
-0.425073
 30
0.000000
 40
0.200000
 50
247.383198
 51
352.616802
  0
ARC
  8
0
 10
1.913783
 20
-1.031290
 30
0.000000
 40
0.800000
 50
313.291177
 51
346.708823
  0
ARC
  8
0
 10
2.613783
 20
-1.031290
 30
0.000000
 40
0.200000
 50
127.383198
 51
232.616802
  0
ARC
  8
0
 10
2.263783
 20
-0.425073
 30
0.000000
 40
0.200000
 50
353.132396
 51
486.867604
  0
ARC
  8
0
 10
1.913783
 20
-1.031290
 30
0.000000
 40
0.600000
 50
75.358886
 51
104.641114
  0
ARC
  8
0
 10
1.563783
 20
-0.425073
 30
0.000000
 40
0.200000
 50
155.074239
 51
186.867604
  0
ARC
  8
0
 10
1.913783
 20
-1.031290
 30
0.000000
 40
0.600000
 50
135.358886
 51
164.641114
  0
ARC
  8
0
 10
1.913783
 20
-1.031290
 30
0.000000
 40
0.800000
 50
277.180756
 51
286.708823
  0
ARC
  8
0
 10
2.263783
 20
-1.637508
 30
0.000000
 40
0.200000
 50
233.132396
 51
360.000000
  0
ARC
  8
0
 10
1.913783
 20
-1.031290
 30
0.000000
 40
0.800000
 50
73.291177
 51
82.819244
  0
ARC
  8
0
 10
1.913783
 20
-1.031290
 30
0.000000
 40
0.800000
 50
133.291177
 51
166.708823
  0
ARC
  8
0
 10
1.913783
 20
-1.031290
 30
0.000000
 40
0.800000
 50
193.291177
 51
226.708823
  0
ARC
  8
0
 10
1.213783
 20
-1.031290
 30
0.000000
 40
0.200000
 50
0.000000
 51
52.616802
  0
ARC
  8
0
 10
1.913783
 20
-1.031290
 30
0.000000
 40
0.600000
 50
15.358886
 51
44.641114
  0
ARC
  8
0
 10
1.563783
 20
-1.637508
 30
0.000000
 40
0.200000
 50
173.132396
 51
306.867604
  0
ARC
  8
0
 10
1.213783
 20
-1.031290
 30
0.000000
 40
0.200000
 50
307.383198
 51
360.000000
  0
ARC
  8
0
 10
2.263783
 20
-1.637508
 30
0.000000
 40
0.200000
 50
67.383198
 51
172.616802
  0
ARC
  8
0
 10
1.913783
 20
-1.031290
 30
0.000000
 40
0.600000
 50
315.358886
 51
344.641114
  0
ARC
  8
0
 10
1.913783
 20
-1.031290
 30
0.000000
 40
0.800000
 50
13.291177
 51
46.708823
  0
ARC
  8
0
 10
2.263783
 20
-0.425073
 30
0.000000
 40
0.200000
 50
187.383198
 51
292.616802
  0
ARC
  8
0
 10
1.913783
 20
-1.031290
 30
0.000000
 40
0.600000
 50
195.358886
 51
224.641114
  0
ARC
  8
0
 10
1.563783
 20
-0.425073
 30
0.000000
 40
0.200000
 50
53.132396
 51
93.023610
  0
ARC
  8
0
 10
1.913783
 20
-1.031290
 30
0.000000
 40
0.800000
 50
253.291177
 51
262.819244
  0
ARC
  8
0
 10
1.913783
 20
-1.031290
 30
0.000000
 40
0.800000
 50
97.180756
 51
106.708823
  0
ARC
  8
0
 10
1.913783
 20
-1.031290
 30
0.000000
 40
2.200000
 50
317.808890
 51
402.191110
  0
CIRCLE
  8
0
 10
3.350968
 20
-2.561953
 30
0.000000
 40
0.100000
  0
CIRCLE
  8
0
 10
-0.030396
 20
-2.561953
 30
0.000000
 40
0.100000
  0
CIRCLE
  8
0
 10
-0.030396
 20
0.499372
 30
0.000000
 40
0.100000
  0
CIRCLE
  8
0
 10
3.350968
 20
0.499372
 30
0.000000
 40
0.100000
  0
CIRCLE
  8
0
 10
1.913783
 20
-2.561953
 30
0.000000
 40
0.100000
  0
CIRCLE
  8
0
 10
1.913783
 20
0.499372
 30
0.000000
 40
0.100000
  0
CIRCLE
  8
0
 10
1.183038
 20
0.499372
 30
0.000000
 40
0.100000
  0
ARC
  8
0
 10
-0.030396
 20
0.499372
 30
0.000000
 40
0.200000
 50
300.000000
 51
330.000000
  0
ARC
  8
0
 10
1.913783
 20
0.499372
 30
0.000000
 40
0.200000
 50
300.000000
 51
330.000000
  0
ARC
  8
0
 10
-0.030396
 20
-2.561953
 30
0.000000
 40
0.200000
 50
120.000000
 51
330.000000
  0
ARC
  8
0
 10
3.350968
 20
0.499372
 30
0.000000
 40
0.200000
 50
344.594329
 51
510.000000
  0
ARC
  8
0
 10
3.350968
 20
0.499372
 30
0.000000
 40
0.200000
 50
210.000000
 51
284.531902
  0
ARC
  8
0
 10
1.913783
 20
0.499372
 30
0.000000
 40
0.200000
 50
30.000000
 51
150.000000
  0
ARC
  8
0
 10
-0.030396
 20
0.499372
 30
0.000000
 40
0.200000
 50
30.000000
 51
240.000000
  0
ARC
  8
0
 10
1.183038
 20
0.499372
 30
0.000000
 40
0.200000
 50
30.000000
 51
150.000001
  0
ARC
  8
0
 10
-0.030396
 20
-2.561953
 30
0.000000
 40
0.200000
 50
30.000000
 51
60.000000
  0
ARC
  8
0
 10
1.913783
 20
-2.561953
 30
0.000000
 40
0.200000
 50
210.000000
 51
330.000000
  0
ARC
  8
0
 10
3.350968
 20
-2.561953
 30
0.000000
 40
0.200000
 50
210.000000
 51
330.000000
  0
ARC
  8
0
 10
3.350968
 20
-2.561953
 30
0.000000
 40
0.200000
 50
0.000000
 51
15.405671
  0
ARC
  8
0
 10
1.913783
 20
-2.561953
 30
0.000000
 40
0.200000
 50
30.000000
 51
60.000000
  0
ARC
  8
0
 10
1.913783
 20
-2.561953
 30
0.000000
 40
0.200000
 50
120.000000
 51
150.000000
  0
ARC
  8
0
 10
3.350968
 20
-2.561953
 30
0.000000
 40
0.200000
 50
330.000000
 51
360.000000
  0
ARC
  8
0
 10
3.350968
 20
-2.561953
 30
0.000000
 40
0.200000
 50
75.468098
 51
150.000000
  0
ARC
  8
0
 10
1.913783
 20
0.499372
 30
0.000000
 40
0.200000
 50
210.000000
 51
240.000000
  0
ARC
  8
0
 10
1.183038
 20
0.499372
 30
0.000000
 40
0.200000
 50
320.000000
 51
330.000000
  0
ARC
  8
0
 10
1.183038
 20
0.499372
 30
0.000000
 40
0.200000
 50
210.000000
 51
260.000000
  0
ARC
  8
0
 10
1.913783
 20
-1.031290
 30
0.000000
 40
0.600000
 50
255.358886
 51
270.000000
  0
ARC
  8
0
 10
1.913783
 20
-1.031290
 30
0.000000
 40
0.600000
 50
270.000000
 51
284.641114
  0
ENDSEC
  0
EOF
